小新樂器館新譜吉他論壇軟體小新吉他館fb
吉他教學 初學者必學15個吉他和弦
小新樂器館
 
k歌之王 - 陳奕迅  

資料上傳:admin        瀏覽次數:4443

本譜目前無人評分         曲譜上傳時間:2010-02-19 12:28:13


感謝您的使用,小新的吉他館永遠是您搜尋吉他譜的好幫手~~


------------------------------------------------------------------------------
歌曲名:K歌之王
歌手/樂隊:陳奕迅
編配者(轉載來源):網絡
-------------------------------------------------------------------------------
D D D D D A G7M G7M G7M G7M A
--*- -2- -2- -0- --- -0- -2-- -3-- -7- -3- -0-
--*- --- --- --- -3- -2- -0-- ---- --- --- -2-
--*- --- --- --- --- -2- -0-- ---- --- --- -2-
--*- --- --- --- --- -2- ---- ----- --- --- -2-
---- --- --- --- --- -0- ---- ---- --- --- -0-
---- --- --- --- --- -0- -3-- ---- --- --- ---


D A Bm #Fm G(3) D Em A
我唱得不夠動人你別皺眉 我願意和你約定致死
D A Bm #Fm G(3) D Em A D
我只想嬉戲唱遊到下世紀 請你別嫌我將這煽情奉獻給你
D7 G D Bm Fm G D Em D
還能憑什麼 擁抱若未令你興奮 便宜地唱出 寫在情歌上的性感
Bm Daad9/B A6/B Em Gm G(3) A(5)
還能憑什麼 要是愛 不 可 感 動 人 俗套的歌詞 煽動你惻忍
D Fm Bm Fm G(3) D Em A
誰又能相信 一世一生這膚淺對白 來吧送給你 叫幾百萬人流淚過的歌
D Fm Bm Fm G(3) Em G A
如從未聽過 誓言如幸福摩天輪 才令我因你 要呼天叫地 愛愛愛愛那麼多
Bm A G Gm G D Em A D
將我漫天心血 一一拋到銀河 誰是垃圾 誰不舍我難過 分一丁目贈我

D A Bm #Fm G(3) D Em A
我唱出心裡話是眼淚會流 要是怕難過抱住我手
D A Bm #Fm G(3) D Em A
我只得千語萬言放在你心 比渴望地老天荒更簡單 未算罕有 repeat
Bm #Fm G #Fm
給你用力作二十首不舍不棄 還附送你愛得過火
Bm #Fm G #Gm
給你賣力唱二十首真心真意 米高峰都因我動容
G D Em A D
無人及我 你怎麼竟然說K歌之王 是我
D A Bm #Fm G(3) D Em A D
我只想跟你未來浸在愛河 而你那呵絕得不能絕 絕到溶掉我

注:Daad9/B A6/B
-2--- -2---
-2-3- -2---
-2--- -2---
-2--- -2---
-2--- -2---
-2--- -2---
 


 

 

給本歌譜評分:


小新吉他館 小新的樂器館
 
小新吉他館 小新的樂器館

  小新樂器館
推薦
小新樂器館-吉他特價
數百款烏克麗麗、吉他、樂器特價, 會員享1%紅利回饋!隔日全省宅配
www.sc.com.tw
烏克麗麗專賣sc.com.tw
數百款烏克麗麗、吉他、樂器特價, 會員享1%紅利回饋!隔日全省宅配
www.sc.com.tw

小新吉他館-Comet吉他專賣 |

商週推薦Comet 慧星吉他品牌!終身換弦免費,專業師博調弦距,好按不痛!
www.sc.com.tw

烏克麗麗專賣sc.com.tw
數百款烏克麗麗、吉他、樂器特價, 會員享1%紅利回饋!隔日全省宅配。
www.sc.com.tw
吉他專賣店-特賣會
電吉他、木吉他、烏克麗麗現貨齊 全省24h宅配到府,滿額免運費。
www.sc.com.tw
蘆洲學吉他烏克麗麗
新北市蘆洲區專業吉他、烏克麗麗、貝斯教學,每月只要2000元,一對一教學
報名專線:02-2282-6962

gita.com.tw

Anuenue 烏克麗麗專賣

 

DCMA免責聲明:   【通知、取下/著作權保護措施】
     目前線上人數:1

本網站無利用使用者上傳的資料直接營利,且在有著作權人通知網管有侵權資料要求移除時,將立即、也必須馬上移除任何會員上傳資料。
因「即時發表」運作方式所規限,故不能完全監察所有即時文章,若有發現問題,請聯絡我們(於24小時刪除)
著作權聲明 提供來源/黃沛聲律師  Web Design by JOJ Design.