返回列表 發帖

[和弦] 陶吉吉「普通朋友」

歌曲名:普通朋友
( [0 \0 S! @+ Z' T
3 z! X9 P. j1 l/ G2 J' l- A7 h- j曲調:4/4拍 1=C
; f( `4 _2 c0 C8 z6 |! t6 g& l! ^* ?-------------------------------------------------------------------------------+ r7 v6 A8 o; W
|-----------1--------------------------------------------|
( n. X. M; [# L( S9 Y|---------1----------6-8-10--8h10p8\6----5h6/8-----------|  n" T3 m5 `8 w# j( a
|-------2----------5-------------------------------------|
, `4 K! y& k5 B1 S& U4 m- k  E% c|-----3--------------------------------------------------|
9 t" R* S1 a  r( C|---3----------------------------------------------------|
1 i9 {$ L4 Z! i% J  ~+ b. S|-1------------------------------------------------------|$ h4 Q5 g9 n+ p, [
2 A: t# E; E) r7 r* N& Y
|-----------------------5--------------------------------------------------|9 k: m" R) E* \, Y' R; |& x
|---------8-----------5-5-5-8---------6-----5---------4------9-7-----------|% q& J& Y; V7 f' U5 V2 R; _6 X
|-------9------------5----------------7-----6-------3-------8-----10-8-----|0 a+ s8 x! p; Y) S6 j
|----8-------7h8----------------------------------5--------8---------------|2 S7 _& m3 ^4 S$ u. l
|-7---------------------------------5-----4----3---------------------------|
$ ]* F" c* n; p$ H3 d5 ^|-------------------5-------------------------------------1----------------|+ W! t! l4 @- @  N

0 j3 B2 ?- Y3 X' U: Y+ I4 {|------------------0-------------------------------------------------|
) a: n+ X# Q9 T; O6 U|-------3---------1--------3----------6------------------------------|
7 Z' E6 D4 \3 o& m; L  U( W|-----3---------0--------3---------3--3-----SLAP GUITAR 2 TIMES------|( V! o6 l/ F* J: v2 C
|---3------------------3---------5----5------------------------------|/ S- k( l2 U$ i- Y
|-1--------0-------------------3-------------------------------------|
5 E6 i( j2 s# _) y2 h1 E- W9 g|--------------------3-----------------------------------------------|  u! z# D) i5 r, v- n" K
9 ^0 g0 K- G$ b5 |
   () - OPTIONAL: i3 ], a8 m3 U& @6 z
' P5 o: Y1 D: [" z' n& ^1 E
     F    Bb      (C)  F    Bb     (C)  F
& j$ r! v. R3 z- j" X; s8 z( h, I   等待 我隨時隨地在等待 做你感情上的依賴5 e  ]0 \( N. P2 d" }) F
     Bb          Gm     C! n: F/ }- A7 e: M% l
   我沒有任何的疑問 這是愛  a  q5 z0 V! o4 i4 ]; Y
     F    Bb      (C)  F    Bb     (C)  F5 l5 Z6 J0 d% Y0 n1 ~  h
   我猜 你早就想要說明白 我覺得自己好失敗
; T8 \% J7 I* H1 H# R     Bb          Gm     C
9 E' T& \+ c  T! @8 _   從天堂掉落到深淵 多無奈/ s+ f, z$ R' m/ x

4 j3 C: T* M! x/ f: G& r     Bbm7   F5 _9 h: B$ a) R1 b6 D
   我願意改變 (what can I do?); H8 n. g6 N! M; ~% D$ ]! h
; r. z& N& ]3 {0 u) g5 y: x* M  L
|-----5--5/6-5------|  \8 l6 a: S6 \( A! m8 \" F
|-6-8----------6----|
5 i2 B6 G9 q+ K: y' @+ M|----------------6--|) `& p" x" W6 h% E9 }
|-------------------|; c0 E4 o) B5 q
|-------------------|$ S& j0 D6 H5 ^& @8 W& A
|-------------------|+ G0 K. J) \3 M' I% d% ~
8 e, n7 u* B, q* t* \
     Bbm7    F0 W, O- J- P% n" P) _! \
   重新再來一遍(just give me chance)9 X' @3 w& M  ]4 |8 t7 \8 e# p
8 K% p4 n. f! ~( p
|------------------------------------|% i3 L# r1 b! h6 B/ Q  z
|----8h10--8h10p8--------------------|
2 G  d6 S' A0 |# Z5 k% @3 m|------------------10----------------|5 n1 f; I$ w4 S* K: v
|-10------------------10h11p10h11p10-|
7 h% l+ C* Y/ T( y0 _|------------------------------------|) w/ V0 r! J0 X# ^" f' i* @
|------------------------------------|
2 n5 w* O& P. f; F, C
  F7 f+ ?3 T0 v2 W# k6 {     Bbm7    Am    Dm   Bb             C+ k2 H" a5 h; l
   我無法只是普通朋友 感情已那麼深 叫我怎麼能收手/ j3 ^# y5 D, ?
          F  Am        Dm          C: @  j# f& P5 M5 G
   但你說 I only want to be your friend 做個朋友$ a, G9 q6 I+ g) L; I8 o! L! `6 P6 g4 B
     F   Am    Gm        C
* s1 j# h& o9 T& ]3 {7 l   我猜  心中只是 just a friend 不是情人  O" w$ B' J+ L2 g8 I( k
     Bb7         A   A7     Dm9 t; c, i+ U( F3 W- D
   我感激  對我這樣的坦白 但我給你的愛暫時收不回來0 l5 t0 b7 E' W9 `1 l
      Gm  Bb7      C7         F
/ c- F: i. @1 v3 n, ~   So I 我不能只是 be your friend
& x( Z2 M; Y& X# u
6 d0 [" P: w* W9 |1 w   F Bbm7 F Bbm77 l: B- Y" j8 H# {1 \  C
   (I just can’t be your friend)
4 L0 S& K3 T! w9 m8 [
6 b* Q! X5 c3 k5 v2 i9 b7 \
! K* k# Z( e# v9 h   I just can’t be* K( y0 e; d6 {6 h
   your friend no,no,no,我不能只是做你的朋友
! B: e: E$ ~6 W; Y6 n   不能只是做普通朋友
 
Pick一片4.5元MARTIN M170弦特價吉他架第2件半價

小新樂器館>台灣最大網路樂器購物站
這首歌超酷的..很喜歡這首歌.... ...謝謝分享...謝謝大大^^  
 
Pick一片4.5元MARTIN M170弦特價吉他架第2件半價

TOP

有前奏嗎?   我看不懂  麻煩可以給我簡譜??
 
Pick一片4.5元MARTIN M170弦特價吉他架第2件半價

TOP

謝謝分享,可以當基礎歌曲來練一練~
 
Pick一片4.5元MARTIN M170弦特價吉他架第2件半價

TOP

回復 1# 小新
5 _( {' t: O2 ~
! N; \( ^+ J. p/ q7 W# a: d" {7 a1 ]+ ]3 U8 R5 T7 j
    謝謝 不太好找說
 
Pick一片4.5元MARTIN M170弦特價吉他架第2件半價

TOP

謝謝大分享
 
Pick一片4.5元MARTIN M170弦特價吉他架第2件半價

TOP

返回列表
民謠木吉他 電吉他 古典吉他 烏克麗麗 音樂書籍/DVD 樂器音箱 效果器 電子琴/鋼琴
領取樂器購物金