返回列表 發帖

[和弦] 陶吉吉「普通朋友」

歌曲名:普通朋友 1 f- W- _$ g5 h6 x6 j5 G) g
+ p, ~; H* f( V8 }" Z" F8 F
曲調:4/4拍 1=C9 }+ q9 ^  N  [; r
-------------------------------------------------------------------------------8 Z/ i$ s) f( G
|-----------1--------------------------------------------|) c- L3 p$ Y. ^& L4 w' O( z! z
|---------1----------6-8-10--8h10p8\6----5h6/8-----------|( u8 Y' J3 m' ~- N) n
|-------2----------5-------------------------------------|
7 p  L# o8 G1 I/ S% k1 X|-----3--------------------------------------------------|
5 z7 R9 L  W" C|---3----------------------------------------------------|
: l$ Q/ Y7 [8 z& f/ S|-1------------------------------------------------------|
" R" I! W: s, g; k5 B, N3 o) t: Z$ C. @6 I% K( x% `4 K
|-----------------------5--------------------------------------------------|
; ^4 \* J* F/ P$ r* D|---------8-----------5-5-5-8---------6-----5---------4------9-7-----------|% l7 U  \/ |1 W+ _1 ]
|-------9------------5----------------7-----6-------3-------8-----10-8-----|! n- J+ V8 V# M' w( f
|----8-------7h8----------------------------------5--------8---------------|2 A7 @4 k) p1 _6 n- a  ]
|-7---------------------------------5-----4----3---------------------------|1 L8 @! e: X1 Q* D
|-------------------5-------------------------------------1----------------|
8 B2 N7 L8 p& r
7 q5 }' u: ]" E1 g1 R. |- g|------------------0-------------------------------------------------|4 f8 D' O0 b3 n" g- a  z3 o; a+ H! y
|-------3---------1--------3----------6------------------------------|2 X" H" V/ L# m) j
|-----3---------0--------3---------3--3-----SLAP GUITAR 2 TIMES------|! s9 @1 C. @: y( G% `! e8 r! y
|---3------------------3---------5----5------------------------------|4 M) d& A$ g! m9 F8 O- G
|-1--------0-------------------3-------------------------------------|6 Z! I9 H% M; C7 s4 S' p* ]( X
|--------------------3-----------------------------------------------|: {7 [7 ]$ F( _/ n( z. w
* {7 {: F* l5 w8 w, G% b* G" \
   () - OPTIONAL, \5 {/ _7 ?  v+ h1 B! e6 c+ O& ]
5 B7 y2 [0 b! T
     F    Bb      (C)  F    Bb     (C)  F  s9 H7 k# h; A  r7 r
   等待 我隨時隨地在等待 做你感情上的依賴
" E& A0 N/ s# v3 W: F' D: Z% w0 u     Bb          Gm     C
  m6 a, v1 A( P) t5 V3 Z' Y   我沒有任何的疑問 這是愛
, E( h5 P6 J  T     F    Bb      (C)  F    Bb     (C)  F
- Z4 `& p8 C& L# S  Q: P7 C   我猜 你早就想要說明白 我覺得自己好失敗) `. ]* w4 \' w) v/ }) B
     Bb          Gm     C# I! @7 r2 ]( g7 N0 Z( _% B4 Y' g
   從天堂掉落到深淵 多無奈
7 b! @5 w! O$ b; ~0 T$ Q4 i7 H) P& t' c- b4 Z
     Bbm7   F
' H  N7 b7 @( s8 V% O& ^   我願意改變 (what can I do?)
, I3 o* s! O% w3 n" V: W0 b& e6 ?: \6 S2 i" `. _
|-----5--5/6-5------|
) l3 J$ P" q) E5 j7 c# }& ?9 Z|-6-8----------6----|
0 a( W" {" \. F  d6 b|----------------6--|
- i- `) }8 n; O! r3 J/ Y# r- Q|-------------------|/ w, T" l. e) f( C
|-------------------|- ]9 {3 w( @8 H' u  c; r0 g* Z0 ?
|-------------------|
0 j+ [4 v$ I8 [! M8 A& ~" A
4 c; i& }# F5 m4 W     Bbm7    F8 O! @! r! t" j' X- h2 @% K4 z
   重新再來一遍(just give me chance)3 G) \$ c" O) z6 O6 [, |
) R% h+ n# z- W- f$ p
|------------------------------------|/ l5 p0 g" S. P  X$ Q
|----8h10--8h10p8--------------------|  K2 ?% H; i  U- I3 t
|------------------10----------------|
% w* m6 u% l5 c|-10------------------10h11p10h11p10-|
3 O8 R/ P$ e9 f8 b* z|------------------------------------|
$ [( i0 m6 D- Z, B|------------------------------------|
; }* u! F% z% g: x7 E
* w( W/ z, `( o4 T     Bbm7    Am    Dm   Bb             C
, \2 J' \' P$ g4 `1 n   我無法只是普通朋友 感情已那麼深 叫我怎麼能收手
; ^4 {7 H; ^" W3 x          F  Am        Dm          C
% G/ V  m7 t5 Y- H$ s   但你說 I only want to be your friend 做個朋友3 D+ m' j* ^1 k+ @' ?6 e% K' y. v
     F   Am    Gm        C# v! P1 X% U+ v7 K. f+ G
   我猜  心中只是 just a friend 不是情人( Q  E5 s$ q1 m
     Bb7         A   A7     Dm( J; p7 d! \* A2 q# Z( S; g
   我感激  對我這樣的坦白 但我給你的愛暫時收不回來
' e8 ?* P) V( {- B1 z: p      Gm  Bb7      C7         F
+ H7 s* N( a( b7 {$ A   So I 我不能只是 be your friend9 A# w" {& d) L! R1 _: K

1 k- a3 V; `$ G1 K9 @  M/ ]; {   F Bbm7 F Bbm7* F$ R5 d+ [! F7 N0 N" s6 |$ B
   (I just can’t be your friend)
- F9 i; \, `6 _+ x" ]- N, E" }" T
5 j0 C1 d7 l+ O$ W: n3 T9 l/ |
   I just can’t be  H& J! \' x+ m: b) _$ }: N! _  k
   your friend no,no,no,我不能只是做你的朋友3 \1 E3 U1 A$ l8 f: {- @
   不能只是做普通朋友
 
Pick一片4.5元MARTIN M170弦特價吉他架第2件半價

小新樂器館>台灣最大網路樂器購物站
這首歌超酷的..很喜歡這首歌.... ...謝謝分享...謝謝大大^^  
 
Pick一片4.5元MARTIN M170弦特價吉他架第2件半價

TOP

有前奏嗎?   我看不懂  麻煩可以給我簡譜??
 
Pick一片4.5元MARTIN M170弦特價吉他架第2件半價

TOP

謝謝分享,可以當基礎歌曲來練一練~
 
Pick一片4.5元MARTIN M170弦特價吉他架第2件半價

TOP

回復 1# 小新 % R. H2 d3 e* h+ h1 S- L. D+ Y
2 l# n& q6 B4 h" r" g+ Z
+ s* [6 U& \8 J3 m6 v: T1 l7 K
    謝謝 不太好找說
 
Pick一片4.5元MARTIN M170弦特價吉他架第2件半價

TOP

謝謝大分享
 
Pick一片4.5元MARTIN M170弦特價吉他架第2件半價

TOP

返回列表

小新樂器館 說讚的粉絲:10,2001 關閉


小新樂器館(吉他/烏克麗麗/商城)

吉他、電吉他、古典吉他與配件,共達6000多項現貨商品,今日訂購;明日送達!


查看
民謠木吉他 電吉他 古典吉他 烏克麗麗 音樂書籍/DVD 樂器音箱 效果器 電子琴/鋼琴