返回列表 發帖

[和弦] 陶吉吉「普通朋友」

歌曲名:普通朋友
/ b$ U& r- u6 o' s& u: u- c  j
, R" t: s0 j- {0 c% k曲調:4/4拍 1=C; P- n0 k3 l4 A- [. w
-------------------------------------------------------------------------------' N4 Z7 j. A/ |! w; ]' ]
|-----------1--------------------------------------------|9 U1 h) I6 i* L7 [
|---------1----------6-8-10--8h10p8\6----5h6/8-----------|& ^7 M; s; S9 v7 r. ^
|-------2----------5-------------------------------------|$ k; J( u8 U7 G
|-----3--------------------------------------------------|9 W  e7 g# Z* h$ D8 z2 n, x
|---3----------------------------------------------------|
! U" P4 k% b% T& b/ y+ h. E|-1------------------------------------------------------|
% F, h* H) A  w4 ?
2 F. ?: m1 h5 |& G! ]|-----------------------5--------------------------------------------------|: }. X: x* m9 K- O
|---------8-----------5-5-5-8---------6-----5---------4------9-7-----------|
: z2 V0 E. ?5 |! Q7 N+ o|-------9------------5----------------7-----6-------3-------8-----10-8-----|: k: T; ?6 J- W& y; o) q6 k
|----8-------7h8----------------------------------5--------8---------------|
, f# p" `) r9 T+ Z|-7---------------------------------5-----4----3---------------------------|" e3 q0 ]9 i1 K9 A
|-------------------5-------------------------------------1----------------|
, R. t( _  \) _) z; M/ C3 _3 j5 n' c
|------------------0-------------------------------------------------|
* e( ~' v+ R0 W8 k2 P8 E|-------3---------1--------3----------6------------------------------|5 c  W  @* c0 F6 o8 K8 p2 R7 j
|-----3---------0--------3---------3--3-----SLAP GUITAR 2 TIMES------|+ q, d; G# U) \, v
|---3------------------3---------5----5------------------------------|4 }% T5 O' D; k) ^' U
|-1--------0-------------------3-------------------------------------|$ L; @5 m% k8 w" v
|--------------------3-----------------------------------------------|
) b% G) g- R3 Y5 Q, F# I+ {/ J* ^% j: }. _/ U% V) K' y
   () - OPTIONAL
9 t# W0 Y/ `. R3 h  [
& Y5 e& W8 ^: N3 n     F    Bb      (C)  F    Bb     (C)  F5 }( `# P1 C8 C6 n1 n+ j0 y
   等待 我隨時隨地在等待 做你感情上的依賴7 c/ p  r  A+ a2 b7 B
     Bb          Gm     C6 S, Z2 E$ O! Y4 }  Y. c0 v# s
   我沒有任何的疑問 這是愛! ~8 }6 v/ x3 B* e; K$ g
     F    Bb      (C)  F    Bb     (C)  F
" r$ d; U* n+ }9 J' x0 b   我猜 你早就想要說明白 我覺得自己好失敗$ I: q; `: }! T& b
     Bb          Gm     C. E- _' X. K% y0 f) c6 Z
   從天堂掉落到深淵 多無奈
4 S6 E5 U( e0 W5 v+ }+ n% C$ t9 J4 J  N5 E
     Bbm7   F
$ s$ t3 h4 W8 l4 N   我願意改變 (what can I do?)
6 |$ i( Z; U0 T" i8 e* t; k, Y: g
|-----5--5/6-5------|
2 r) ?" ~4 j/ g$ E|-6-8----------6----|
- @8 P% ?4 V  K|----------------6--|
" f8 a, T$ j2 g/ O5 G3 v: [|-------------------|
* @5 a0 k* _/ ?4 p: R|-------------------|$ Z+ \% ]. A& b$ c/ n3 h# y
|-------------------|7 c! d5 v- j/ F% o* y0 j
$ u+ D( y# d0 X* ^
     Bbm7    F
0 C- `) V  c, g   重新再來一遍(just give me chance). C$ v9 h6 l" z# f* s
2 G5 Y$ `+ m1 ~- T1 p  ]# @6 b
|------------------------------------|2 W& H" ^/ ?2 n+ ?$ v5 L: q
|----8h10--8h10p8--------------------|( D9 W, c+ N& n" h3 s
|------------------10----------------|6 a- k+ S3 B. |
|-10------------------10h11p10h11p10-|
9 u5 q, O9 ~, o& |* ]|------------------------------------|
2 C+ U1 E" P/ h, n% b- g|------------------------------------|9 G# \0 G" r0 n" G4 L0 O8 O
, I4 `, M' i+ Q( {
     Bbm7    Am    Dm   Bb             C( O5 Y- W3 U  \% U: }! }' y+ j. b
   我無法只是普通朋友 感情已那麼深 叫我怎麼能收手9 T! z2 n. r$ f# ]7 p6 d' j# p7 K
          F  Am        Dm          C
9 F# |$ E  F3 P% B& H- @   但你說 I only want to be your friend 做個朋友
/ d1 J7 V; ~8 [- l( N     F   Am    Gm        C( d5 J3 Z# V3 R2 a" O& |
   我猜  心中只是 just a friend 不是情人9 O3 z% |( W. Y. v2 S3 N
     Bb7         A   A7     Dm0 w& A# B9 e. b" H. ]! b
   我感激  對我這樣的坦白 但我給你的愛暫時收不回來
  V  P$ e9 }2 X+ i& C      Gm  Bb7      C7         F% O( Z: W0 @% |8 x- i: J* k. ?
   So I 我不能只是 be your friend  v$ }3 n- d/ I0 ?, M3 c

2 S- t7 W) c0 a2 e   F Bbm7 F Bbm73 ?% W. B/ b" J7 w- S  e
   (I just can’t be your friend)
0 K$ C3 u4 Y( \. m$ o3 V. c
' A' T! P+ {3 f+ P
1 @  m- j6 W! e   I just can’t be
$ H3 V' k; Y0 {* E# z4 ?   your friend no,no,no,我不能只是做你的朋友
$ w6 V0 J% |% K6 @- z6 q3 }   不能只是做普通朋友
 
Pick一片4.5元MARTIN M170弦特價吉他架第2件半價

小新樂器館>台灣最大網路樂器購物站
這首歌超酷的..很喜歡這首歌.... ...謝謝分享...謝謝大大^^  
 
Pick一片4.5元MARTIN M170弦特價吉他架第2件半價

TOP

有前奏嗎?   我看不懂  麻煩可以給我簡譜??
 
Pick一片4.5元MARTIN M170弦特價吉他架第2件半價

TOP

謝謝分享,可以當基礎歌曲來練一練~
 
Pick一片4.5元MARTIN M170弦特價吉他架第2件半價

TOP

回復 1# 小新
& I9 l- O: G+ j# U+ A# `5 |8 ?- {% g8 ], V9 J7 E) e2 p, p
1 h; v' r, }' x( _6 t  Y! x% l+ K
    謝謝 不太好找說
 
Pick一片4.5元MARTIN M170弦特價吉他架第2件半價

TOP

謝謝大分享
 
Pick一片4.5元MARTIN M170弦特價吉他架第2件半價

TOP

返回列表

小新吉他館 157,889人 說讚 關閉


小新吉他館 Facebook破15萬

快來按讚!不定期送卡祖笛、Pick、等抽獎活動,掌握台灣樂器一手消息與動態!


查看
蘆洲學吉他、烏克麗麗、鋼琴 音樂教室(小新吉他館)樂器專賣店

本網站無利用使用者上傳的資料直接營利,且在有著作權人通知網管有侵權資料要求移除時,將立即、也必須馬上移除任何會員上傳資料。
因「即時發表」運作方式所規限,故不能完全監察所有即時文章,若有發現問題,請聯絡我們(於24小時刪除)
著作權聲明 提供來源/黃沛聲律師  
領取樂器購物金