返回列表 發帖

[和弦] 陶吉吉「普通朋友」

歌曲名:普通朋友 , F% K" F5 j6 E8 x2 f" F$ p  ~
5 o5 o* m( w2 D- V' ~- k  K
曲調:4/4拍 1=C
& S- `& R" p8 Y4 m4 Z2 R-------------------------------------------------------------------------------
( d' z5 u" S. T: w3 v|-----------1--------------------------------------------|9 Z3 T) d! j9 q7 X
|---------1----------6-8-10--8h10p8\6----5h6/8-----------|
( H& p  T* G# G' ~|-------2----------5-------------------------------------|: [1 M' J: n$ X2 f$ o5 L* O- a
|-----3--------------------------------------------------|
& t# g4 W2 T4 j, b/ M9 t|---3----------------------------------------------------|
, x" b2 y' Y' m  y0 H9 m! x: `/ V|-1------------------------------------------------------|
+ d3 u: n2 R3 _/ T
9 F+ Y9 y5 q9 Y+ [1 R( R% {|-----------------------5--------------------------------------------------|
" k: u( P3 F) m) v2 f|---------8-----------5-5-5-8---------6-----5---------4------9-7-----------|, h! E( g5 d3 i3 Q
|-------9------------5----------------7-----6-------3-------8-----10-8-----|  b! J' _/ B" y
|----8-------7h8----------------------------------5--------8---------------|
5 w* ?; d1 ^; R8 v2 |! q# V  z2 C5 C|-7---------------------------------5-----4----3---------------------------|6 n$ s2 ]! n0 Z- v
|-------------------5-------------------------------------1----------------|
: I$ K( m0 t4 }) @3 |; ]# }! w  T* y5 N- V
|------------------0-------------------------------------------------|+ ]2 M; R, c' Z8 h' i, A
|-------3---------1--------3----------6------------------------------|5 V) x0 [& g# \- j0 A
|-----3---------0--------3---------3--3-----SLAP GUITAR 2 TIMES------|5 m& s% ^3 m" [) O9 A8 ^
|---3------------------3---------5----5------------------------------|5 o$ A! {: w4 c6 R( S
|-1--------0-------------------3-------------------------------------|' {/ A! d4 z; X. e: D
|--------------------3-----------------------------------------------|
2 W  I% Y+ j* H- @. v: x; \$ Z+ Q  w. `" b9 ?
   () - OPTIONAL- ~. p) T6 I6 j% j2 a) z

- [* ]+ `# K) |: T$ r+ P, H1 R2 f- P     F    Bb      (C)  F    Bb     (C)  F
. M9 S/ T" g; }) [   等待 我隨時隨地在等待 做你感情上的依賴
& I; G% b" Z0 X6 ~) c( {" C9 w6 K* n  v     Bb          Gm     C7 V9 m) W/ i$ [' J* f- _: y1 t* i
   我沒有任何的疑問 這是愛3 X- O& y* M# I" i6 H5 o
     F    Bb      (C)  F    Bb     (C)  F
( |0 T2 a  x2 N* `. G   我猜 你早就想要說明白 我覺得自己好失敗
- ^& \% p0 z* H: P7 }9 M     Bb          Gm     C
) z$ T9 K9 @: ~  J1 P   從天堂掉落到深淵 多無奈
3 @' d4 {2 B" g! G$ W( Z5 s, M
. i  M' B5 B9 P1 Z$ p2 U! U9 \# |     Bbm7   F% ^0 T" x$ e6 f6 a
   我願意改變 (what can I do?)
. R- [, F2 h/ w8 n  z) S
, J+ f+ R& c* Q|-----5--5/6-5------|! o2 g5 [% M0 z' g* f
|-6-8----------6----|* r- l  [. M: d; o6 t
|----------------6--|" j, k& m7 F- Z1 q
|-------------------|% K+ |. x3 S+ V$ @
|-------------------|0 B. ^6 J# N1 R8 Y& y
|-------------------|+ c& K* y7 b" o1 t, s! X5 J3 ?! {

& h% X# s8 ^! l; y% P0 I     Bbm7    F
4 l7 ?8 T' j; _$ U, q   重新再來一遍(just give me chance)7 c& C+ g9 f9 L/ l( u9 ?
  r6 y; U! s6 j. c
|------------------------------------|/ f2 z3 E7 C2 Q, K
|----8h10--8h10p8--------------------|
. o, E1 \; ~8 ~3 _# k|------------------10----------------|9 I6 n& V! E1 P  e$ B2 z5 G( b
|-10------------------10h11p10h11p10-|. t, A( \" c% {# M' }+ g
|------------------------------------|! R0 I6 w2 v: {
|------------------------------------|
+ Z9 A9 q( r- N* E' `! E
0 [. d& U  ]0 \& t- {$ S     Bbm7    Am    Dm   Bb             C0 U. x; t1 ]" m8 E8 }
   我無法只是普通朋友 感情已那麼深 叫我怎麼能收手% |6 X6 `" h. {; q6 o, i5 w
          F  Am        Dm          C
2 r3 s* I3 q0 V   但你說 I only want to be your friend 做個朋友
# \( r. k  R  F  E/ C; V) i* _     F   Am    Gm        C
! Y% }) b) C: ?; `   我猜  心中只是 just a friend 不是情人$ |8 j: i4 p$ s9 \$ Q/ I/ B+ h- Z8 R
     Bb7         A   A7     Dm: Z/ Y5 j" l) p: F1 b8 W: t! s
   我感激  對我這樣的坦白 但我給你的愛暫時收不回來9 M9 E. a$ V  U5 E; {5 t
      Gm  Bb7      C7         F
0 L8 p, Z; P# R9 D% i  x   So I 我不能只是 be your friend
7 K5 ]* ?" T; D& ^
4 W2 K( S7 s( \  i   F Bbm7 F Bbm7
, n. w, D  ?+ y% L: y/ @1 ]8 O   (I just can’t be your friend). Q9 h) V% q& G7 W
# W  @! _0 j1 E+ m9 }3 M* F. g
: a/ x) z& [7 T$ J) D- H
   I just can’t be8 Z5 R$ F8 `2 V* J/ u/ c* e
   your friend no,no,no,我不能只是做你的朋友
1 ?" ]/ U& Z3 H/ f* M3 Q! Y" C   不能只是做普通朋友
 
Pick一片4.5元MARTIN M170弦特價吉他架第2件半價

小新樂器館>台灣最大網路樂器購物站
這首歌超酷的..很喜歡這首歌.... ...謝謝分享...謝謝大大^^  
 
Pick一片4.5元MARTIN M170弦特價吉他架第2件半價

TOP

有前奏嗎?   我看不懂  麻煩可以給我簡譜??
 
Pick一片4.5元MARTIN M170弦特價吉他架第2件半價

TOP

謝謝分享,可以當基礎歌曲來練一練~
 
Pick一片4.5元MARTIN M170弦特價吉他架第2件半價

TOP

回復 1# 小新 ! W; S- c& y9 F4 i

; D9 i4 \5 T; M( c$ B2 o2 C5 Y( f! g& d% H
    謝謝 不太好找說
 
Pick一片4.5元MARTIN M170弦特價吉他架第2件半價

TOP

謝謝大分享
 
Pick一片4.5元MARTIN M170弦特價吉他架第2件半價

TOP

返回列表

小新吉他館 157,889人 說讚 關閉


小新吉他館 Facebook破15萬

快來按讚!不定期送卡祖笛、Pick、等抽獎活動,掌握台灣樂器一手消息與動態!


查看
蘆洲學吉他、烏克麗麗、鋼琴 音樂教室(小新吉他館)樂器專賣店

本網站無利用使用者上傳的資料直接營利,且在有著作權人通知網管有侵權資料要求移除時,將立即、也必須馬上移除任何會員上傳資料。
因「即時發表」運作方式所規限,故不能完全監察所有即時文章,若有發現問題,請聯絡我們(於24小時刪除)
著作權聲明 提供來源/黃沛聲律師  
領取樂器購物金