返回列表 發帖

[和弦] 陶吉吉「普通朋友」

歌曲名:普通朋友
6 I+ S2 C' O# v4 @4 c# n; l2 K& A4 A. B) t* X
曲調:4/4拍 1=C
8 P1 D, @, W: m" i-------------------------------------------------------------------------------& U) Z! X  F7 f
|-----------1--------------------------------------------|
. S1 B  m# @# p* C|---------1----------6-8-10--8h10p8\6----5h6/8-----------|. P8 Y) I* A6 j: L3 |) y
|-------2----------5-------------------------------------|6 h7 ^9 m# ?  S7 b
|-----3--------------------------------------------------|/ y' o' z+ Y" E+ Q! i& Y% @
|---3----------------------------------------------------|1 v  Y0 x- p3 _* Q' L: a
|-1------------------------------------------------------|6 ]8 f+ P; @0 N3 n* n+ N" o8 W

" u! h) J, q( ]) U" P|-----------------------5--------------------------------------------------|  H. R& k8 M: z5 t4 H* o
|---------8-----------5-5-5-8---------6-----5---------4------9-7-----------|( h4 r3 \! s: e. ]* w
|-------9------------5----------------7-----6-------3-------8-----10-8-----|
, i3 ^/ x6 f0 Z|----8-------7h8----------------------------------5--------8---------------|
, T$ `, K# b& a" [; ~|-7---------------------------------5-----4----3---------------------------|
' ]  |- Z1 Z% R8 a& Z|-------------------5-------------------------------------1----------------|
: O* v6 b2 f" y7 X/ e1 Y+ j
7 C3 x* \. J9 L0 c/ |6 D|------------------0-------------------------------------------------|3 J9 v7 ]8 Y5 A! f0 [2 B- X1 e
|-------3---------1--------3----------6------------------------------|
* u# o7 @4 L' c( A1 t! b|-----3---------0--------3---------3--3-----SLAP GUITAR 2 TIMES------|4 r+ @  q9 n( A
|---3------------------3---------5----5------------------------------|7 J/ ?8 `! V, j! M: ^" f: n
|-1--------0-------------------3-------------------------------------|* f% o# B2 U* K, y' C& J, M
|--------------------3-----------------------------------------------|' \5 k! T  w3 P; E2 a
( {/ `% }! O  k2 w- ?7 c5 X
   () - OPTIONAL7 q" ]3 L5 g) I2 Y$ y& q# a
9 l  A2 `6 t6 e" M3 `3 t
     F    Bb      (C)  F    Bb     (C)  F
9 [/ J$ w" i5 h' _) e   等待 我隨時隨地在等待 做你感情上的依賴
1 Z( \- C1 o  t, B$ {2 J     Bb          Gm     C$ i4 k1 H* D. Q) l# `. j+ {
   我沒有任何的疑問 這是愛3 C/ d2 g3 t# e9 _
     F    Bb      (C)  F    Bb     (C)  F, B5 |  w; @# H, v# _0 W
   我猜 你早就想要說明白 我覺得自己好失敗
; Z7 X8 Y8 ?/ o1 c+ D4 e     Bb          Gm     C
, W$ n" Z: g- ?$ W   從天堂掉落到深淵 多無奈" S/ C4 l" ?7 u: g0 T" {9 Q6 w

; o) i- g3 [+ K6 k$ i) |$ |     Bbm7   F
1 M; d8 n  R) s/ I) ~- W) p4 H   我願意改變 (what can I do?)
4 A  |4 k$ l* k& Y# f  K. E/ y& P( o4 E3 s) B
|-----5--5/6-5------|
+ ]: u! [6 {# I|-6-8----------6----|
: [2 ?, L/ g2 m) F1 D4 M7 j|----------------6--|# l: U5 N/ Y% u% d: D
|-------------------|( I' {9 @2 F' y6 n/ N6 S" \
|-------------------|
, M( P5 ]3 u. R7 }- F! g) T|-------------------|7 t3 b! x8 t# f) h' r# ?5 O5 X

; o% W& T! i( M9 O# Q9 N6 H     Bbm7    F7 x' L5 T! K# `/ @
   重新再來一遍(just give me chance)& M1 v; A. j0 i% ?* G

) h9 A. n* U8 u( |9 T+ \0 c- n|------------------------------------|
: v& W. G' [; B( ~# D7 r|----8h10--8h10p8--------------------|! S+ f) {1 s9 I* i) M1 A; o! k- K
|------------------10----------------|
1 x' ~/ R% y2 ^" V|-10------------------10h11p10h11p10-|% g3 X0 N- K' w: G8 ~
|------------------------------------|, [; s7 ?2 s' W: T$ y8 i8 A7 g
|------------------------------------|! ~* ]6 {( ~4 l

- x9 i& H0 Q& Q: z0 `7 u     Bbm7    Am    Dm   Bb             C! h# `4 d9 M2 ]
   我無法只是普通朋友 感情已那麼深 叫我怎麼能收手5 J8 [0 r9 N" p$ `. e! l# D& m
          F  Am        Dm          C
* X$ |. h& W: M9 T' E# y& t" \) X   但你說 I only want to be your friend 做個朋友
. t  y1 u: l2 r2 a: U     F   Am    Gm        C
$ o) d7 z5 e8 D, i4 O/ b* E) r   我猜  心中只是 just a friend 不是情人6 M! o6 R$ u+ g: c: t
     Bb7         A   A7     Dm2 R0 c3 |$ ]; @3 J- V+ d. e& s
   我感激  對我這樣的坦白 但我給你的愛暫時收不回來0 y3 b7 }4 K& `
      Gm  Bb7      C7         F
, P0 j" E5 U0 s, B8 y4 r8 g   So I 我不能只是 be your friend* t" b# c' g/ f# l% L- O8 v

" E% Z! e/ k- ~" |4 ?5 C/ w   F Bbm7 F Bbm7- u- p; [( U2 o( d7 H* V
   (I just can’t be your friend)9 u- p1 V2 P" a+ c# {" Q

% m) ~( M) S/ J/ z* B0 Q2 ]6 z
" _. D  L7 e% v6 F   I just can’t be, o' o6 L3 s4 `, S% }: X6 r
   your friend no,no,no,我不能只是做你的朋友
7 f: o& U2 G7 z5 N* B3 X  ~   不能只是做普通朋友
 
Pick一片4.5元MARTIN M170弦特價吉他架第2件半價

小新樂器館>台灣最大網路樂器購物站
這首歌超酷的..很喜歡這首歌.... ...謝謝分享...謝謝大大^^  
 
Pick一片4.5元MARTIN M170弦特價吉他架第2件半價

TOP

有前奏嗎?   我看不懂  麻煩可以給我簡譜??
 
Pick一片4.5元MARTIN M170弦特價吉他架第2件半價

TOP

謝謝分享,可以當基礎歌曲來練一練~
 
Pick一片4.5元MARTIN M170弦特價吉他架第2件半價

TOP

回復 1# 小新 , J; \0 ^* E4 o

. a- e3 I7 p& X; h7 e* ]: }# ~. R5 N
    謝謝 不太好找說
 
Pick一片4.5元MARTIN M170弦特價吉他架第2件半價

TOP

謝謝大分享
 
Pick一片4.5元MARTIN M170弦特價吉他架第2件半價

TOP

返回列表

小新吉他館 157,889人 說讚 關閉


小新吉他館 Facebook破15萬

快來按讚!不定期送卡祖笛、Pick、等抽獎活動,掌握台灣樂器一手消息與動態!


查看
民謠木吉他 電吉他 古典吉他 烏克麗麗 音樂書籍/DVD 樂器音箱 效果器 電子琴/鋼琴
領取樂器購物金