返回列表 發帖

[和弦] 陶吉吉「普通朋友」

歌曲名:普通朋友 4 B5 B6 b% }/ `1 h- p' u4 |

2 I6 n! C( [) C! {: J9 d" W' {曲調:4/4拍 1=C2 P4 x% ]& q* r
-------------------------------------------------------------------------------
8 e. o. j  b( D8 l, q. t|-----------1--------------------------------------------|! \/ w) u, n' v3 H+ V7 U
|---------1----------6-8-10--8h10p8\6----5h6/8-----------|7 z, P9 z" R1 ?4 h) C
|-------2----------5-------------------------------------|9 W1 Z! {; T2 k- E* F6 r- G8 b* n# j
|-----3--------------------------------------------------|; a. \# u& m6 [/ \1 z6 y; k7 X
|---3----------------------------------------------------|" `+ M/ H% B8 ^* a
|-1------------------------------------------------------|4 U* o, a) X$ L: \& m, e
, h0 i) |: W2 a/ Y5 ~7 x/ |
|-----------------------5--------------------------------------------------|
9 B6 f0 g; f0 G' P% U( f|---------8-----------5-5-5-8---------6-----5---------4------9-7-----------|
( l' a- q# ]/ X|-------9------------5----------------7-----6-------3-------8-----10-8-----|6 r5 h4 V* _% u% ^; v
|----8-------7h8----------------------------------5--------8---------------|
) i7 L* o! A$ s3 M( L, a|-7---------------------------------5-----4----3---------------------------|
$ R' b# x& i* p|-------------------5-------------------------------------1----------------|6 `' s% ^3 m% b" {+ e3 |. K, \, `

0 G% u: u( j! l8 @|------------------0-------------------------------------------------|
) g- ^3 K- j- V( R7 L- T% H2 `7 p|-------3---------1--------3----------6------------------------------|
7 r1 q" U0 |7 s8 _" s6 J. h|-----3---------0--------3---------3--3-----SLAP GUITAR 2 TIMES------|, w$ i- L6 x! n2 I$ ]% U
|---3------------------3---------5----5------------------------------|& a5 Y% @( H1 f4 ^% ~1 B
|-1--------0-------------------3-------------------------------------|" C8 p/ e$ [3 \
|--------------------3-----------------------------------------------|
, t! ?) P& b, M7 D) B: @3 ^6 H  H- K8 B
   () - OPTIONAL4 P4 ~5 X; z- o8 h. H) ]

* j- C, b5 N$ {4 u& @4 Q/ S     F    Bb      (C)  F    Bb     (C)  F
- n" [) ]  B1 m5 `   等待 我隨時隨地在等待 做你感情上的依賴& u9 Y) V4 k; ?1 C( F" s- M& T+ Y
     Bb          Gm     C/ b8 ?1 |6 K2 s; Z9 E3 C+ x
   我沒有任何的疑問 這是愛
$ ?4 J; K/ d4 W     F    Bb      (C)  F    Bb     (C)  F
5 t$ E7 x  ~3 P; [* o   我猜 你早就想要說明白 我覺得自己好失敗
6 ]& ^7 v- a/ H# a& i$ ~1 `     Bb          Gm     C
+ X( m5 O$ Z/ q   從天堂掉落到深淵 多無奈
; p: K9 ~$ ?4 U: D" R6 m$ t/ [5 C  ?" x4 _
     Bbm7   F$ w' _) q4 \1 q. u. L0 L
   我願意改變 (what can I do?). L0 a% L5 X* {  ~9 Q

! e( j# G7 a2 s# O" C6 h' z2 c1 `|-----5--5/6-5------|7 |! [+ Z& w: x+ K
|-6-8----------6----|, f; K2 v; q2 F# T/ F' _
|----------------6--|% w( O! W6 N, N* ^; P# m- c
|-------------------|
$ k1 b) y  w, F; i: W|-------------------|- d4 O2 P' Z& J1 F% n. O
|-------------------|% U/ s2 O/ e+ S/ j
' V) R: W; _, f/ j% J: Z
     Bbm7    F
2 g7 }5 q0 E8 m* Z   重新再來一遍(just give me chance)
9 n" c- r) j' u+ X6 H. i& d! L1 V: L, ]0 }4 L) X% h' S* `7 g. i0 g9 ~  o
|------------------------------------|
. y0 d8 `0 D7 o0 n& D" Z|----8h10--8h10p8--------------------|. F" Q: @) Z+ p! @& g; O+ J
|------------------10----------------|% M" D/ w7 I' x  M
|-10------------------10h11p10h11p10-|9 {6 J+ c! T  D3 {* T2 W+ N" L
|------------------------------------|1 z7 Y) ]$ E" y: f, G# o
|------------------------------------|8 ~/ P3 X' G! b' |
9 T' ^$ p% b) U8 b- Z
     Bbm7    Am    Dm   Bb             C5 [# [2 O  u/ e1 h* f0 b
   我無法只是普通朋友 感情已那麼深 叫我怎麼能收手9 X! Z0 M% X) \# O2 `
          F  Am        Dm          C! s* ?$ L1 L5 t0 H3 X- q  H4 U
   但你說 I only want to be your friend 做個朋友
4 e1 M  W' q0 s( f2 o) a+ ~     F   Am    Gm        C' J6 i* I' r2 O9 \8 X1 o6 j( {2 Q
   我猜  心中只是 just a friend 不是情人3 [6 @  V4 t  l- R: j1 ?% H3 ?3 @
     Bb7         A   A7     Dm
2 T! A$ ~3 E  G! Y6 r   我感激  對我這樣的坦白 但我給你的愛暫時收不回來" Z, P3 y6 n' @
      Gm  Bb7      C7         F
# Z" }7 R0 {; Y8 \5 Y   So I 我不能只是 be your friend
* v( _% p( C9 x! m2 Q8 p( P  g1 l: q; S# A4 S4 k
   F Bbm7 F Bbm76 B6 s2 L* R: q* V+ O' B
   (I just can’t be your friend)
3 d4 f& x. w- Q/ Q7 @9 ~
( m) ~7 H8 F4 M4 p9 D8 ]/ [6 l$ E+ x7 t0 K! Y
   I just can’t be
, q) y# b5 Z) U( s   your friend no,no,no,我不能只是做你的朋友2 I- w4 I: b+ {+ {" j6 z4 {
   不能只是做普通朋友
【積分券與小新鑽】使用說明:
【發表文章/上傳檔案】(積分券+10 / 小新鑽+5)【回覆文章】(積分券+ 2 / 小新鑽 +1)【下載檔案】(小新鑽-1顆 )
【小新鑽】若為 0 時,則無法下載任何檔案!除發文與回覆外,可使用【積分券兌換小新鑽
 
Pick一片4.5元MARTIN M170弦特價吉他架第2件半價

這首歌超酷的..很喜歡這首歌.... ...謝謝分享...謝謝大大^^  
 
Pick一片4.5元MARTIN M170弦特價吉他架第2件半價

TOP

有前奏嗎?   我看不懂  麻煩可以給我簡譜??
 
Pick一片4.5元MARTIN M170弦特價吉他架第2件半價

TOP

謝謝分享,可以當基礎歌曲來練一練~
 
Pick一片4.5元MARTIN M170弦特價吉他架第2件半價

TOP

回復 1# 小新
: g0 K8 N: ]; @# I7 p) c+ O- i. }3 G9 ?

$ r! k0 S, n, y3 [! `( Z    謝謝 不太好找說
 
Pick一片4.5元MARTIN M170弦特價吉他架第2件半價

TOP

謝謝大分享
 
Pick一片4.5元MARTIN M170弦特價吉他架第2件半價

TOP

返回列表

小新樂器館 說讚的粉絲:10,2001 關閉


小新樂器館(吉他/烏克麗麗/商城)

吉他、電吉他、古典吉他與配件,共達6000多項現貨商品,今日訂購;明日送達!


查看
民謠木吉他 電吉他 古典吉他 烏克麗麗 音樂書籍/DVD 樂器音箱 效果器 電子琴/鋼琴