返回列表 發帖

[和弦] 陶吉吉「普通朋友」

歌曲名:普通朋友
! c# O& y% O* C; i5 I. m0 ]% w, r) H+ `4 G; y; t
曲調:4/4拍 1=C2 \9 t8 c3 o" x0 B4 {
-------------------------------------------------------------------------------" Q! Y6 Q( y0 Z" c. D3 v
|-----------1--------------------------------------------|4 m$ S1 o" z* k% N; o; w1 V
|---------1----------6-8-10--8h10p8\6----5h6/8-----------|; V" x) m2 \- f. k
|-------2----------5-------------------------------------|
+ g& f, s: Y/ V" C|-----3--------------------------------------------------|
3 B4 ]7 l. n  `/ o|---3----------------------------------------------------|/ s8 o( e+ u, ]! p% o. s
|-1------------------------------------------------------|
0 L* x9 L" V: f1 C& W  C0 t' Y) O+ O7 }- @( B
|-----------------------5--------------------------------------------------|2 o4 m/ x7 E, e, U7 h' j! h
|---------8-----------5-5-5-8---------6-----5---------4------9-7-----------|" R3 P! W3 M! Z
|-------9------------5----------------7-----6-------3-------8-----10-8-----|
% {8 l9 q0 Q2 A, w2 N. d|----8-------7h8----------------------------------5--------8---------------|: E5 S% I6 a% o  d* @5 v
|-7---------------------------------5-----4----3---------------------------|5 _2 {2 ~2 T5 x5 t8 h& l
|-------------------5-------------------------------------1----------------|
! f% Y# P# y0 y9 i1 K1 Q0 H6 T+ I$ s+ ?& g" z2 W
|------------------0-------------------------------------------------|& `! P- E/ K2 H: V( i, E4 N
|-------3---------1--------3----------6------------------------------|
% A, S& G/ ^$ d|-----3---------0--------3---------3--3-----SLAP GUITAR 2 TIMES------|
9 L+ k6 `) z+ s|---3------------------3---------5----5------------------------------|
! [2 m' g4 }# a  Z" `|-1--------0-------------------3-------------------------------------|0 ?6 H5 T8 b" O
|--------------------3-----------------------------------------------|
3 D6 h% c3 |+ k) Z) ]! i& u1 l7 F7 i4 j8 F& H
   () - OPTIONAL) F- a9 r! d1 w* _

5 x6 l, m' {) \; w: v8 M1 Y8 o& }     F    Bb      (C)  F    Bb     (C)  F
9 X+ p; D5 G& s2 ^1 g   等待 我隨時隨地在等待 做你感情上的依賴/ _! q7 S3 Y( E6 F; x+ T* h
     Bb          Gm     C0 I8 V# U  _/ r- ~: S
   我沒有任何的疑問 這是愛
, b# P$ C6 N( o, M+ i) U     F    Bb      (C)  F    Bb     (C)  F. z5 M; t: y4 O% e. }
   我猜 你早就想要說明白 我覺得自己好失敗
2 e% E2 J; S! H/ A/ ~$ _     Bb          Gm     C
) N6 t5 c- W+ u   從天堂掉落到深淵 多無奈
* _3 d. V5 m; B# s9 V% R+ l' m7 U9 V% `& T/ Y
     Bbm7   F
9 D% E1 U/ b, @0 D% c. i   我願意改變 (what can I do?)
, p7 ^/ U' b9 S4 Z$ ?% g4 U; [, q2 G6 [9 C8 p
|-----5--5/6-5------|
, l3 t# z2 z( T9 ~1 ?|-6-8----------6----|& s: g: s: t$ @" U! ?. [" h# s
|----------------6--|' f+ V1 H; x  O/ Z
|-------------------|
, R# C" e! D" S. Q, a|-------------------|
* U* ]9 W) d1 O. @|-------------------|
$ A1 K5 F' L3 m, s+ f5 e6 \5 C' E+ z, f6 L3 E
     Bbm7    F
; h& d2 m# s& ~6 m   重新再來一遍(just give me chance): v, g* f' h: [( C2 N
- z8 o: `, [6 L" J. H
|------------------------------------|" u+ e. n# M" \1 ?* r
|----8h10--8h10p8--------------------|
9 ]5 q0 Y0 ^. |3 Q5 F+ }  \6 H9 Z+ G|------------------10----------------|: ?7 g# |9 G  d& ~! ?% u% A  k- h
|-10------------------10h11p10h11p10-|* K1 M% Q0 {' ]+ U. [, X- O
|------------------------------------|% n' Z& ]( l8 |
|------------------------------------|4 D9 U, m6 [/ m2 k, T5 d

& I. h* O1 O* ^     Bbm7    Am    Dm   Bb             C. X  {3 S4 l2 |3 t4 K! Y
   我無法只是普通朋友 感情已那麼深 叫我怎麼能收手7 G3 M6 T9 F/ z- l) P: `
          F  Am        Dm          C# Y& p! ~0 D3 v4 ^
   但你說 I only want to be your friend 做個朋友, y4 i" i' v$ \( q% R
     F   Am    Gm        C
  P( {6 k- @) b4 j8 ]   我猜  心中只是 just a friend 不是情人4 G- e% n7 s$ \9 l) m
     Bb7         A   A7     Dm) Q4 j- O3 w7 k* a6 n7 M
   我感激  對我這樣的坦白 但我給你的愛暫時收不回來0 w( ?  l: z2 w' g0 ^. u* G
      Gm  Bb7      C7         F9 y( t# Y+ |2 Y) A0 o( [" F
   So I 我不能只是 be your friend
& k( }) L2 d8 j+ N% [1 K" N  D' H4 b/ c" z# n/ ?) V4 u) U
   F Bbm7 F Bbm78 {8 n# H0 f  c1 j& }) p
   (I just can’t be your friend)0 b+ L9 Z+ c5 f: Q

/ U: a* H- S/ b* A
2 Y8 N% I/ v' \) g) \" ?) l7 N: ~   I just can’t be
5 `% E6 c/ l9 g- R& U   your friend no,no,no,我不能只是做你的朋友" z, y- V1 _& ?9 k1 X0 r
   不能只是做普通朋友
 
Pick一片4.5元MARTIN M170弦特價吉他架第2件半價

小新樂器館>台灣最大網路樂器購物站
這首歌超酷的..很喜歡這首歌.... ...謝謝分享...謝謝大大^^  
 
Pick一片4.5元MARTIN M170弦特價吉他架第2件半價

TOP

有前奏嗎?   我看不懂  麻煩可以給我簡譜??
 
Pick一片4.5元MARTIN M170弦特價吉他架第2件半價

TOP

謝謝分享,可以當基礎歌曲來練一練~
 
Pick一片4.5元MARTIN M170弦特價吉他架第2件半價

TOP

回復 1# 小新 " g! z( D) _) B% W6 I
1 p8 G: ]& m: W, W" s0 N
' {  u6 f' {4 z
    謝謝 不太好找說
 
Pick一片4.5元MARTIN M170弦特價吉他架第2件半價

TOP

謝謝大分享
 
Pick一片4.5元MARTIN M170弦特價吉他架第2件半價

TOP

返回列表

小新樂器館 說讚的粉絲:10,2001 關閉


小新樂器館(免費Pick.講座.fb獨享活動)

快來按讚!fb每日新增吉他、烏克麗麗,kuso趣味圖片,並提供正版吉他譜、烏克麗麗譜選購,新奇玩意!


查看
民謠木吉他 電吉他 古典吉他 烏克麗麗 音樂書籍/DVD 樂器音箱 效果器 電子琴/鋼琴