返回列表 發帖

[和弦] 陶吉吉「普通朋友」

歌曲名:普通朋友 - U, |/ S4 E& A( L7 o
! K0 F* N& W& v! \$ a; J
曲調:4/4拍 1=C& |6 i6 q% }" _: Q
-------------------------------------------------------------------------------$ U# r3 ]4 R( r) Q0 Z
|-----------1--------------------------------------------|
7 q+ C1 s2 q+ n' F0 e|---------1----------6-8-10--8h10p8\6----5h6/8-----------|
) |( y% d) F! c5 u7 j- Y$ z4 e2 T6 ]|-------2----------5-------------------------------------|$ i' C; u+ ^' Z+ ]4 a/ i
|-----3--------------------------------------------------|! B. F5 x! m" w- ]4 N
|---3----------------------------------------------------|
# Y2 a' r% E) E5 K4 e: |& z|-1------------------------------------------------------|7 f( R8 e6 a6 |1 M* m7 U! A; j4 M, ~
2 n/ {. ]7 ]7 p* E6 G. Q9 Y2 J; p* `
|-----------------------5--------------------------------------------------|+ ]3 _/ S: ^  |: X* o8 P
|---------8-----------5-5-5-8---------6-----5---------4------9-7-----------|9 u; k- L$ K7 J; g  o! b
|-------9------------5----------------7-----6-------3-------8-----10-8-----|
# r; I" g( h- P; M- N+ f2 O|----8-------7h8----------------------------------5--------8---------------|2 U% D" ^/ a7 v' Q: m
|-7---------------------------------5-----4----3---------------------------|! C* y* H, f3 o9 G9 _4 _% k9 ]8 Q, r
|-------------------5-------------------------------------1----------------|
" ?1 J2 w# l" o! b( ?
# g. c4 ~8 ^7 f# l6 q0 e3 k|------------------0-------------------------------------------------|8 g3 u* j& u: n$ ]7 g
|-------3---------1--------3----------6------------------------------|
7 c" @0 u' `6 f3 x( [4 `3 ~4 {* q|-----3---------0--------3---------3--3-----SLAP GUITAR 2 TIMES------|
. j7 U/ E  m7 N* u/ x7 \" \- o% o|---3------------------3---------5----5------------------------------|
9 P9 ^$ B. \; C/ ||-1--------0-------------------3-------------------------------------|
% _- p9 f* D$ d0 {# G; Y. q: W" i|--------------------3-----------------------------------------------|
; i, Y5 G$ O0 @5 C: I0 ?4 d: Z$ [/ b; A
   () - OPTIONAL3 b' b$ N! @: e& ~
9 n6 Z9 P5 o' i5 X3 o' _
     F    Bb      (C)  F    Bb     (C)  F, C# b% @9 G: U$ x
   等待 我隨時隨地在等待 做你感情上的依賴
8 M$ K& w+ X8 J3 f     Bb          Gm     C$ Z! S" L+ t* I4 u" O* B
   我沒有任何的疑問 這是愛4 t# ~* A: r( p7 [% y7 d2 U* |
     F    Bb      (C)  F    Bb     (C)  F% k4 q  W2 ]/ P7 {( W
   我猜 你早就想要說明白 我覺得自己好失敗, X. G) N* l$ L
     Bb          Gm     C0 o0 q( _: @3 f3 l! Z- Z) Q
   從天堂掉落到深淵 多無奈6 j9 I" |7 ]) Y

0 y; p* I0 R6 t% x/ o; l) `/ l     Bbm7   F7 m2 ?2 }" Z4 v- g7 E& w
   我願意改變 (what can I do?); P8 }. W" M9 H. g
% v. [4 s5 L) W5 S0 N! O
|-----5--5/6-5------|
+ u( @6 S7 e3 ~" k9 \$ e|-6-8----------6----|3 u/ Z. }" v" {1 L# O" t/ u
|----------------6--|
) M: x! ~% P( s, K8 }% {|-------------------|- V! C* a" f' ~/ I. f
|-------------------|
* H  i7 m' m; J) N8 ?1 D, c% _8 f+ y2 ^" O|-------------------|; b2 x; f& N5 f% q( U* E# N- S' Y
" {. w; w$ w! e% \
     Bbm7    F# o  t2 i) t6 ]9 X% x# ~
   重新再來一遍(just give me chance)
1 z/ c$ u1 J* A9 ]6 x# x6 T7 i) ]/ k/ J' {+ v
|------------------------------------|  W9 s1 h4 K* z  |4 f  `
|----8h10--8h10p8--------------------|2 v- e7 M8 ?4 _% g5 }
|------------------10----------------|
; F6 R! F6 f* v|-10------------------10h11p10h11p10-|- R5 k' o9 z$ K
|------------------------------------|- C" b$ F5 n! W! u  B
|------------------------------------|
8 H8 ?' {# S, W4 D- i
1 |2 p+ E9 R8 [: p6 N4 W' O1 ~& F! I     Bbm7    Am    Dm   Bb             C* o# o$ P3 _' H9 @  F' D
   我無法只是普通朋友 感情已那麼深 叫我怎麼能收手! }  D/ S  Z; H8 G% S
          F  Am        Dm          C' @* G# M8 U$ E- D& W$ l
   但你說 I only want to be your friend 做個朋友
9 H" l8 A( ?$ C9 @) t  I% u5 V     F   Am    Gm        C, B3 V9 T+ R. S1 _0 R
   我猜  心中只是 just a friend 不是情人
5 I# [. ]6 f2 w4 K8 @1 D9 j     Bb7         A   A7     Dm
! g, v" ~7 @8 ?   我感激  對我這樣的坦白 但我給你的愛暫時收不回來, f3 I9 |# \* h7 g( y4 K; C
      Gm  Bb7      C7         F' N. N$ p! G, o" x6 ?
   So I 我不能只是 be your friend
; j; V" A% |8 o$ O7 t2 ^# h3 }) J% q7 u1 R3 H. H9 w
   F Bbm7 F Bbm77 @. }! {9 d3 v* T! c8 j* W
   (I just can’t be your friend)+ J$ U0 a6 @1 k- B* C; c& V* S
: Y+ a  H4 ?) K" _( z3 ^; a& v

0 d# T) _% X/ L/ T9 M3 b: a   I just can’t be+ ~6 C1 n& q  C! e9 ]) K, m6 a
   your friend no,no,no,我不能只是做你的朋友
4 ]- A2 \: [: U* b9 a   不能只是做普通朋友
 
Pick一片4.5元MARTIN M170弦特價吉他架第2件半價

小新樂器館>台灣最大網路樂器購物站
這首歌超酷的..很喜歡這首歌.... ...謝謝分享...謝謝大大^^  
 
Pick一片4.5元MARTIN M170弦特價吉他架第2件半價

TOP

有前奏嗎?   我看不懂  麻煩可以給我簡譜??
 
Pick一片4.5元MARTIN M170弦特價吉他架第2件半價

TOP

謝謝分享,可以當基礎歌曲來練一練~
 
Pick一片4.5元MARTIN M170弦特價吉他架第2件半價

TOP

回復 1# 小新 - I: C+ j2 J3 Z: b
% K9 Y) I& i: {& Q

( |  N1 M" \" m+ [    謝謝 不太好找說
 
Pick一片4.5元MARTIN M170弦特價吉他架第2件半價

TOP

謝謝大分享
 
Pick一片4.5元MARTIN M170弦特價吉他架第2件半價

TOP

返回列表

小新吉他館 157,889人 說讚 關閉


小新吉他館 Facebook破15萬

快來按讚!不定期送卡祖笛、Pick、等抽獎活動,掌握台灣樂器一手消息與動態!


查看
蘆洲學吉他、烏克麗麗、鋼琴 音樂教室(小新吉他館)樂器專賣店

本網站無利用使用者上傳的資料直接營利,且在有著作權人通知網管有侵權資料要求移除時,將立即、也必須馬上移除任何會員上傳資料。
因「即時發表」運作方式所規限,故不能完全監察所有即時文章,若有發現問題,請聯絡我們(於24小時刪除)
著作權聲明 提供來源/黃沛聲律師  
領取樂器購物金