返回列表 發帖

[和弦] 陶吉吉「普通朋友」

歌曲名:普通朋友
2 X  M! e3 [" x  B. g, }, m9 |! I5 f4 A' c/ l2 J
曲調:4/4拍 1=C" S! A" ^0 b% m, ^
-------------------------------------------------------------------------------
* {8 E- x% Y1 G5 L|-----------1--------------------------------------------|
$ s9 m9 O5 K( C. C# A6 I! W|---------1----------6-8-10--8h10p8\6----5h6/8-----------|
& [  N: Q0 x! [( g|-------2----------5-------------------------------------|7 E, o( E0 f3 V# B/ A  j) U5 |
|-----3--------------------------------------------------|& p! j0 C2 V9 H+ x5 W0 ^
|---3----------------------------------------------------|4 X. x8 y% h, [$ D: E4 G; b8 [
|-1------------------------------------------------------|
  x+ ?6 e& n& [; e, d% o
) p* q( D. G3 b3 A2 X' r8 l|-----------------------5--------------------------------------------------|, P# l. k& Z6 f3 j& ]# y3 w) a. Q6 h, x
|---------8-----------5-5-5-8---------6-----5---------4------9-7-----------|
& C, b9 z: h1 v- b|-------9------------5----------------7-----6-------3-------8-----10-8-----|' w3 |1 Z; T/ L: W. X! O
|----8-------7h8----------------------------------5--------8---------------|
+ k( E% ^% X+ |" z: `0 m  p* m|-7---------------------------------5-----4----3---------------------------|$ P# ~4 l+ c) O* N; e9 C
|-------------------5-------------------------------------1----------------|8 d5 ]% l' I5 A% R( `, h
+ C- p( o5 Z3 i" ~
|------------------0-------------------------------------------------|
# `( O7 v  |, S' |8 u8 Z. Y|-------3---------1--------3----------6------------------------------|" q4 |. L. d/ i5 l: |; t  m
|-----3---------0--------3---------3--3-----SLAP GUITAR 2 TIMES------|# L/ U# T$ G; r
|---3------------------3---------5----5------------------------------|9 X# {$ ^. Q; u1 G6 k; u5 S
|-1--------0-------------------3-------------------------------------|" ?4 K+ d2 p# t
|--------------------3-----------------------------------------------|( Q2 E% [. j7 q; i- i
0 J7 p- n% N3 p2 @% C% y! |
   () - OPTIONAL
9 E! w- o  A1 I. [0 D. C1 M, k) i) V; h& u
     F    Bb      (C)  F    Bb     (C)  F: Q' V( D5 P5 b# O
   等待 我隨時隨地在等待 做你感情上的依賴2 z9 _" G0 v" N9 @6 a/ V
     Bb          Gm     C8 `2 s7 ~6 c! q( d
   我沒有任何的疑問 這是愛
4 ^9 |$ ?- V& P+ d4 |9 C5 r( ]3 u7 e     F    Bb      (C)  F    Bb     (C)  F) ~: C  k& R) I- a
   我猜 你早就想要說明白 我覺得自己好失敗0 I) g7 Z8 f# F# v6 S9 K
     Bb          Gm     C
( B5 T% w& ^6 N9 }* u# K$ W   從天堂掉落到深淵 多無奈1 C5 U3 b$ o1 O

+ c3 P; l3 e8 P( i     Bbm7   F) x. C+ G8 w3 W6 ?6 T
   我願意改變 (what can I do?)
) w: T, d" s: b% p$ \
. ]) P0 I3 J5 W8 X|-----5--5/6-5------|
  Q$ k0 k7 s: h  R9 @" V; O! T3 w|-6-8----------6----|
( B- }+ X8 V% D$ n|----------------6--|. y; f# n* E- w1 f- M
|-------------------|
0 a9 b, N+ ]1 Y6 w" p|-------------------|
0 I' e# Z# j+ ?( A% K8 s3 _|-------------------|
4 O+ e$ v( @2 Y& {  ^, u, n7 n; M7 u5 Z
     Bbm7    F
0 C) J6 C8 T; C6 i   重新再來一遍(just give me chance)# [. C) a- A+ Y4 s. a2 K% h0 ~

$ e8 A/ N# D& s|------------------------------------|, g7 O- z6 ]8 ~7 [8 F+ W6 F
|----8h10--8h10p8--------------------|8 a3 Q5 g/ s+ ?, q( a  f
|------------------10----------------|
% U' o" C* R% a2 Y|-10------------------10h11p10h11p10-|5 A' k: \- M* O
|------------------------------------|
4 C7 y* Q. U  t|------------------------------------|
0 R4 l7 T0 K/ Y/ R' d  N9 ]9 B4 ^( Q6 u& p3 J& a! ~
     Bbm7    Am    Dm   Bb             C
5 U; I, a9 @, ?- b. U   我無法只是普通朋友 感情已那麼深 叫我怎麼能收手' w% o+ k& V; h3 q3 Q9 s
          F  Am        Dm          C
5 y3 v' d$ B; D3 a; V$ X2 s& s6 H   但你說 I only want to be your friend 做個朋友/ {( X% A5 _, j4 a
     F   Am    Gm        C3 i2 n& F* O! o: {: p& _8 d  B( |9 S
   我猜  心中只是 just a friend 不是情人
8 `0 t" O. E# Z' ]     Bb7         A   A7     Dm5 p7 E4 H; ~$ c# w. ?1 v
   我感激  對我這樣的坦白 但我給你的愛暫時收不回來
+ o5 U, X' f$ l. c" Z      Gm  Bb7      C7         F
: r9 L/ C: }9 V; U" }   So I 我不能只是 be your friend% B2 c/ A# r- [; k7 i
& ^/ r# {; H( S2 G
   F Bbm7 F Bbm7
2 y( o( w- ~6 s% M4 u2 n   (I just can’t be your friend)
4 U  I9 A3 P1 x. z. k  Q5 h
3 I/ \( l9 h) k9 i1 r7 C5 R' p0 A
   I just can’t be& O; a. ], a( d$ W# m
   your friend no,no,no,我不能只是做你的朋友
( I, }8 K) P1 n7 K1 r4 w   不能只是做普通朋友
 
Pick一片4.5元MARTIN M170弦特價吉他架第2件半價

小新樂器館>台灣最大網路樂器購物站
這首歌超酷的..很喜歡這首歌.... ...謝謝分享...謝謝大大^^  
 
Pick一片4.5元MARTIN M170弦特價吉他架第2件半價

TOP

有前奏嗎?   我看不懂  麻煩可以給我簡譜??
 
Pick一片4.5元MARTIN M170弦特價吉他架第2件半價

TOP

謝謝分享,可以當基礎歌曲來練一練~
 
Pick一片4.5元MARTIN M170弦特價吉他架第2件半價

TOP

回復 1# 小新 * F0 j3 J: [- j- C, J$ K

" C4 B# a" \& c) Y5 L7 Y- v8 v, Z5 R4 _& Y; S, {% X% r4 X
    謝謝 不太好找說
 
Pick一片4.5元MARTIN M170弦特價吉他架第2件半價

TOP

謝謝大分享
 
Pick一片4.5元MARTIN M170弦特價吉他架第2件半價

TOP

返回列表

小新吉他館 157,889人 說讚 關閉


小新吉他館 Facebook破15萬

快來按讚!不定期送卡祖笛、Pick、等抽獎活動,掌握台灣樂器一手消息與動態!


查看
蘆洲學吉他、烏克麗麗、鋼琴 音樂教室(小新吉他館)樂器專賣店
領取樂器購物金